RGT Section 1 – Scales and Arpeggios Part G – Minor & 7th Altered Arpeggios

RGT Section 1 – Scales and Arpeggios Part G – Minor & 7th Altered Arpeggios
13th April 2015 Shane

Section 1 – Scales and Arpeggios Part G
All Minor and dominant 7th arpeggios which include # or b 5ths and/or # or b 9ths are required over two octaves.


C MINOR 7b5

R  b3  b5  b7
C  Eb  Gb  Bb

----------------------------------|
--------------7-11-7--------------|
------------8--------8------------|
-------8-10------------10-8-------|
-----9----------------------9-----|
8-11--------------------------11-8|

C MINOR 7#5

R  b3  #5  b7
C  Eb  G#  Bb


------------------------------------|
---------------9-11-9---------------|
-------------8--------8-------------|
--------8-10------------10-8--------|
-----11----------------------11-----|
8-11----------------------------11-8|

C MINOR 7b9

R  b3  5   b7  b9
C  Eb  G   Bb  Db

-----------------------9-----------------------|
------------------8-11---11-8------------------|
----------------8-------------8----------------|
--------8-11-10-----------------10-11-8--------|
-----10---------------------------------10-----|
8-11---------------------------------------11-8|

C MINOR 7#9

R  b3  5  b7  #9
C  Eb  G  Bb  D#

----------------------11----------------------|
-----------------8-11----11-8-----------------|
----------8----8--------------8----8----------|
--------8---10------------------10---8--------|
-----10--------------------------------10-----|
8-11--------------------------------------11-8|

C MINOR 7b5b9

R  b3  b5  b7  b9
C  Eb  Gb  Bb  Db

----------------------9----------------------|
-----------------7-11---11-7-----------------|
---------------8-------------8---------------|
-------8-11-10-----------------10-11-8-------|
-----9---------------------------------9-----|
8-11-------------------------------------11-8|

C MINOR 7b5#9

R  b3  b5  b7  #9
C  Eb  Gb  Bb  D#

---------------------11----------------------|
----------------7-11----11-7-----------------|
---------8----8--------------8----8----------|
-------8---10------------------10---8--------|
-----9--------------------------------9------|
8-11-------------------------------------11-8|

C MINOR 7#5b9

R  b3  #5  b7  b9
C  Eb  G#  Bb  Db

-----------------------9-----------------------|
------------------9-11---11-9------------------|
----------------8-------------8----------------|
--------8-11-10-----------------10-11-8--------|
-----11---------------------------------11-----|
8-11---------------------------------------11-8|

C MINOR 7#5#9

R  b3  #5  b7  #9
C  Eb  G#  Bb  D#

---------------------11----------------------|
-----------------9-11---11-9-----------------|
----------8----8-------------8----8----------|
--------8---10-----------------10---8--------|
-----11-------------------------------11-----|
8-11-------------------------------------11-8|

C MINOR 9b5

R  b3  b5  b7  9
C  Eb  Gb  Bb  D

----------------------10----------------------|
-----------------7-11----11-7-----------------|
---------------8--------------8---------------|
-------8-12-10------------------10-12-8-------|
-----9----------------------------------9-----|
8-11--------------------------------------11-8|

C MINOR 9#5

R  b3  #5  b7  9
C  Eb  G#  Bb  D

----------------------10-----------------------|
------------------9-11---11-9------------------|
----------------8-------------8----------------|
--------8-12-10-----------------10-12-8--------|
-----11---------------------------------11-----|
8-11---------------------------------------11-8|

C 7b5

R  3  b5  b7  
C  E  Gb  Bb  

--------------------------------|
-------------7-11-7-------------|
-----------9--------9-----------|
------8-10------------10-8------|
--7-9----------------------9-7--|
8------------------------------8|

C 7#5

R  3  #5  b7  
C  E  G#  Bb  

----------------------------------|
--------------9-11-9--------------|
------------9--------9------------|
-------8-10------------10-8-------|
--7-11----------------------11-7--|
8--------------------------------8|

C 7b9

R  3  5  b7  b9  
C  E  G  Bb  Db

---------------------9---------------------|
----------------8-11---11-8----------------|
---------6----9-------------9----6---------|
-------8---10-----------------10---8-------|
--7-10-------------------------------10-7--|
8-----------------------------------------8|

C 7#9

R  3  5  b7  #9  
C  E  G  Bb  D#

---------------------11---------------------|
----------------8-11----11-8----------------|
---------8----9--------------9----8---------|
-------8---10------------------10---8-------|
--7-10--------------------------------10-7--|
8------------------------------------------8|

C 7b5b9

R  3  b5  b7  b9  
C  E  Gb  Bb  Db

--------------------9--------------------|
---------------7-11---11-7---------------|
--------6----9-------------9----6--------|
------8---10-----------------10---8------|
--7-9-------------------------------9-7--|
8---------------------------------------8|

C 7b5#9

R  3  b5  b7  #9  
C  E  Gb  Bb  D#

--------------------11--------------------|
---------------7-11----11-7---------------|
--------8----9--------------9----8--------|
------8---10------------------10---8------|
--7-9--------------------------------9-7--|
8----------------------------------------8|

C 7#5b9

R  3  #5  b7  b9  
C  E  G#  Bb  Db

---------------------9---------------------|
----------------9-11---11-9----------------|
---------6----9-------------9----6---------|
-------8---10-----------------10---8-------|
--7-11-------------------------------11-7--|
8-----------------------------------------8|

C 7#5#9

R  3  #5  b7  #9  
C  E  G#  Bb  D#

---------------------11---------------------|
----------------9-11----11-9----------------|
---------8----9--------------9----8---------|
-------8---10------------------10---8-------|
--7-11--------------------------------11-7--|
8------------------------------------------8|

C 9b5

R  3  b5  b7  9  
C  E  Gb  Bb  D

--------------------10--------------------|
---------------7-11----11-7---------------|
--------7----9--------------9----7--------|
------8---10------------------10---8------|
--7-9--------------------------------9-7--|
8----------------------------------------8|


C 9#5

R  3  #5  b7  9  
C  E  G#  Bb  D

---------------------10---------------------|
----------------9-11----11-9----------------|
---------7----9--------------9----7---------|
-------8---10------------------10---8-------|
--7-11--------------------------------11-7--|
8------------------------------------------8|

Buy ScaleViz To help you Master the Modes, Nail the CAGED system, learn all Major, Minor and Dominant, Chords, Arpeggios, Pentatonics and Modal Shapes in all positions, go from From Cowboy Chords to Soloing and become a Fretboard Master with ScaleViz today!

Developer of ScaleViz – Visual Guitar Shape Trainer which is now available for all iOS devices and Apple TV, simply search your Apple TV for ScaleViz!

Alternatively you can grab the Universal iOS version straight from the Apple App Store: https://itunes.apple.com/us/app/scaleviz-universal-visual/id1121441109?ls=1&mt=8

When I’m not developing or expanding my knowledge in graphic design or programming…

I enjoy playing the guitar, watching horror films, astronomy, snorkeling, the study of hypnosis & NLP and I really enjoy Vaping and all thats involved, including making coils and e-liquid.

0 Comments

Leave a reply

Your email address will not be published. Required fields are marked *

*