RGT Section 1 – Scales and Arpeggios Part D – Harmonized Scales

RGT Section 1 – Scales and Arpeggios Part D – Harmonized Scales
13th April 2015 Shane

Section 1 – Scales and Arpeggios Part D
These two octave harmonized scales are required in the keys of G major & G Minor


G MAJOR SCALE IN 3rds

R  2  3  4  5   6  7   R
G  A  B  C  D   E  F#  G
B  C  D  E  F#  G  A   B

----------------------------3-5-7||
---------------------3-5-7--5-7-8||
--------------2-4-5--4-5-7-------||
-------2-4-5--4-5-7--------------||
2-3-5--3-5-7---------------------||
3-5-7----------------------------||

G MAJOR SCALE IN 8ths

G  A  B  C  D   E  F#  G
R  2  3  4  5   6  7   R

------------------------5--7---8--10--12--14--15|
------------------7--8--------------------------|
---------5--7--9-------------------7---9--11--12|
5--7--9-----------4--5--7--9--10----------------|
---------3--5--7--------------------------------|
3--5--7-----------------------------------------|

G NATURAL MINOR SCALE IN 3rds

R   2  b3  4   5  b6  b7  R
G   A  Bb  C   D  Eb  F   G
Bb  C  D   Eb  F  G   A   Bb

------------------------------5-6||
---------------------3-4-6-8--6-8||
--------------2-3-5--3-5-7-8-----||
-------1-3-5--3-5-7--------------||
1-3-5--3-5-6---------------------||
3-5-6----------------------------||

G NATURAL MINOR SCALE IN 8ths

G   A  Bb  C   D  Eb  F   G
R   2  b3  4   5  b6  b7  R

------------------------5--6---8--10--11--13--15|
------------------6--8--------------------------|
---------5--7--8-------------------7---8--10--12|
5--7--8-----------3--5--7--8--10----------------|
---------3--5--6--------------------------------|
3--5--6-----------------------------------------|

Buy ScaleViz To help you Master the Modes, Nail the CAGED system, learn all Major, Minor and Dominant, Chords, Arpeggios, Pentatonics and Modal Shapes in all positions, go from From Cowboy Chords to Soloing and become a Fretboard Master with ScaleViz today!

Developer of ScaleViz – Visual Guitar Shape Trainer which is now available for all iOS devices and Apple TV, simply search your Apple TV for ScaleViz!

Alternatively you can grab the Universal iOS version straight from the Apple App Store: https://itunes.apple.com/us/app/scaleviz-universal-visual/id1121441109?ls=1&mt=8

When I’m not developing or expanding my knowledge in graphic design or programming…

I enjoy playing the guitar, watching horror films, astronomy, snorkeling, the study of hypnosis & NLP and I really enjoy Vaping and all thats involved, including making coils and e-liquid.

0 Comments

Leave a reply

Your email address will not be published. Required fields are marked *

*